  0
SECTION
  2
TABLES
  0
TABLE
  2
LTYPE
 70
8
  0
LTYPE
  2
CONTINUOUS
 70
64
  3
Solid line
 72
65
 73
0
 40
0.000000
  0
LTYPE
  2
DOT
 70
64
  3
. . . . . . . . . . . . . . . . . . . . . . . . . . . . . . . . .
 72
65
 73
2
 40
0.250000
 49
0.000000
 49
-0.250000
  0
LTYPE
  2
HIDDEN
 70
64
  3
__ __ __ __ __ __ __ __ __ __ __ __ __ __ __ __ __ __ __ __ __
 72
65
 73
2
 40
0.375000
 49
0.250000
 49
-0.125000
  0
LTYPE
  2
DASHED
 70
64
  3
__ __ __ __ __ __ __ __ __ __ __ __ __ __ __ __ __ __ __ __ __
 72
65
 73
2
 40
0.750000
 49
0.500000
 49
-0.250000
  0
LTYPE
  2
DASHDOT
 70
64
  3
__ . __ . __ . __ . __ . __ . __ . __ . __ . __ . __ . __ . _
 72
65
 73
4
 40
1.000000
 49
0.500000
 49
-0.250000
 49
0.000000
 49
-0.250000
  0
LTYPE
  2
PHANTOM
 70
64
  3
______  __  __  ______  __  __  ______  __  __  ______  __  __
 72
65
 73
6
 40
2.500000
 49
1.250000
 49
-0.250000
 49
0.250000
 49
-0.250000
 49
0.250000
 49
-0.250000
  0
LTYPE
  2
CENTER
 70
64
  3
____ _ ____ _ ____ _ ____ _ ____ _ ____ _ ____ _ ____ _ ____ _
 72
65
 73
4
 40
2.000000
 49
1.250000
 49
-0.250000
 49
0.250000
 49
-0.250000
  0
ENDTAB
  0
ENDSEC
0
SECTION
2
ENTITIES
999
This is a DXF file written from EZVAL.
999
Project: Fudd Expressway
999
Task   : New Alignment
999
Designer: B. Bunny
  0
POLYLINE
  8
2
  6
HIDDEN
 62
2
 66
1
 10
         39.9000
 20
        646.2300
 30
          0.0000
  0
VERTEX
  8
2
  6
HIDDEN
 62
2
 10
         39.9000
 20
        646.2300
 30
          0.0000
  0
VERTEX
  8
2
  6
HIDDEN
 62
2
 10
         80.0000
 20
        654.2500
 30
          0.0000
  0
VERTEX
  8
2
  6
HIDDEN
 62
2
 10
        200.0000
 20
        660.0000
 30
          0.0000
  0
VERTEX
  8
2
  6
HIDDEN
 62
2
 10
        200.0000
 20
        660.0000
 30
          0.0000
  0
SEQEND
  8
0
  0
TEXT
  8
2
  6
CONTINUOUS
 62
2
 10
         40.0000
 20
        647.5000
 30
          0.0000
 40
          1.2500
  1
PC Sta: 4+00.00
  7
ROMANS
 50
  90.0000
  0
TEXT
  8
2
  6
CONTINUOUS
 62
2
 10
         42.1875
 20
        647.5000
 30
          0.0000
 40
          1.2500
  1
PC Elev: 646.25
  7
ROMANS
 50
  90.0000
  0
TEXT
  8
2
  6
CONTINUOUS
 62
2
 10
        155.0000
 20
        659.0938
 30
          0.0000
 40
          1.2500
  1
PC Sta: 16+50.00
  7
ROMANS
 50
  90.0000
  0
TEXT
  8
2
  6
CONTINUOUS
 62
2
 10
        157.1875
 20
        659.0938
 30
          0.0000
 40
          1.2500
  1
PC Elev: 657.84
  7
ROMANS
 50
  90.0000
  0
TEXT
  8
2
  6
CONTINUOUS
 62
2
 10
         80.0000
 20
        655.5000
 30
          0.0000
 40
          1.2500
  1
PI Sta: 8+00.00
  7
ROMANS
 50
  90.0000
  0
TEXT
  8
2
  6
CONTINUOUS
 62
2
 10
         82.1875
 20
        655.5000
 30
          0.0000
 40
          1.2500
  1
PI Elev: 654.2500
  7
ROMANS
 50
  90.0000
  0
TEXT
  8
2
  6
CONTINUOUS
 62
2
 10
         84.3750
 20
        655.5000
 30
          0.0000
 40
          1.2500
  1
Curve Length: 800.0000
  7
ROMANS
 50
  90.0000
  0
TEXT
  8
2
  6
CONTINUOUS
 62
2
 10
        200.0000
 20
        661.2500
 30
          0.0000
 40
          1.2500
  1
PI Sta: 20+00.00
  7
ROMANS
 50
  90.0000
  0
TEXT
  8
2
  6
CONTINUOUS
 62
2
 10
        202.1875
 20
        661.2500
 30
          0.0000
 40
          1.2500
  1
PI Elev: 660.0000
  7
ROMANS
 50
  90.0000
  0
TEXT
  8
2
  6
CONTINUOUS
 62
2
 10
        204.3750
 20
        661.2500
 30
          0.0000
 40
          1.2500
  1
Curve Length: 900.0000
  7
ROMANS
 50
  90.0000
  0
TEXT
  8
2
  6
CONTINUOUS
 62
2
 10
        120.0000
 20
        657.4167
 30
          0.0000
 40
          1.2500
  1
PT Sta: 12+00.00
  7
ROMANS
 50
  90.0000
  0
TEXT
  8
2
  6
CONTINUOUS
 62
2
 10
        117.8125
 20
        657.4167
 30
          0.0000
 40
          1.2500
  1
PT Elev: 656.17
  7
ROMANS
 50
  90.0000
  0
TEXT
  8
2
  6
CONTINUOUS
 62
2
 10
        185.7122
 20
        657.3296
 30
          0.0000
 40
          1.2500
  1
Max Sta: 19+57.12
 72
2
 11
        185.7122
 21
        657.3296
 31
          0.0000
  7
ROMANS
 50
  90.0000
  0
TEXT
  8
2
  6
CONTINUOUS
 62
2
 10
        183.5247
 20
        657.3296
 30
          0.0000
 40
          1.2500
  1
Max Elev: 658.58
 72
2
 11
        183.5247
 21
        657.3296
 31
          0.0000
  7
ROMANS
 50
  90.0000
  0
TEXT
  8
2
  6
CONTINUOUS
 62
2
 10
         59.9500
 20
        650.8650
 30
          0.0000
 40
          1.2500
  1
2.00%
 72
1
 11
         59.9500
 21
        650.8650
 31
          0.0000
  7
ROMANS
 50
  11.3099
  0
TEXT
  8
2
  6
CONTINUOUS
 62
2
 10
        140.0000
 20
        657.7500
 30
          0.0000
 40
          1.2500
  1
0.48%
 72
1
 11
        140.0000
 21
        657.7500
 31
          0.0000
  7
ROMANS
 50
   2.7433
  0
TEXT
  8
2
  6
CONTINUOUS
 62
2
 10
        200.0000
 20
        660.6250
 30
          0.0000
 40
          1.2500
  1
-0.93%
 72
1
 11
        200.0000
 21
        660.6250
 31
          0.0000
  7
ROMANS
 50
  -5.2848
  0
POLYLINE
  8
1
  6
CONTINUOUS
 62
1
 66
1
 10
         39.9000
 20
        646.2300
 30
          0.0000
  0
VERTEX
  8
1
  6
CONTINUOUS
 62
1
 10
         39.9000
 20
        646.2300
 30
          0.0000
  0
VERTEX
  8
1
  6
CONTINUOUS
 62
1
 10
         40.9000
 20
        646.4292
 30
          0.0000
  0
VERTEX
  8
1
  6
CONTINUOUS
 62
1
 10
         41.9000
 20
        646.6266
 30
          0.0000
  0
VERTEX
  8
1
  6
CONTINUOUS
 62
1
 10
         42.9000
 20
        646.8220
 30
          0.0000
  0
VERTEX
  8
1
  6
CONTINUOUS
 62
1
 10
         43.9000
 20
        647.0155
 30
          0.0000
  0
VERTEX
  8
1
  6
CONTINUOUS
 62
1
 10
         44.9000
 20
        647.2072
 30
          0.0000
  0
VERTEX
  8
1
  6
CONTINUOUS
 62
1
 10
         45.9000
 20
        647.3969
 30
          0.0000
  0
VERTEX
  8
1
  6
CONTINUOUS
 62
1
 10
         46.9000
 20
        647.5847
 30
          0.0000
  0
VERTEX
  8
1
  6
CONTINUOUS
 62
1
 10
         47.9000
 20
        647.7707
 30
          0.0000
  0
VERTEX
  8
1
  6
CONTINUOUS
 62
1
 10
         48.9000
 20
        647.9547
 30
          0.0000
  0
VERTEX
  8
1
  6
CONTINUOUS
 62
1
 10
         49.9000
 20
        648.1368
 30
          0.0000
  0
VERTEX
  8
1
  6
CONTINUOUS
 62
1
 10
         50.9000
 20
        648.3171
 30
          0.0000
  0
VERTEX
  8
1
  6
CONTINUOUS
 62
1
 10
         51.9000
 20
        648.4954
 30
          0.0000
  0
VERTEX
  8
1
  6
CONTINUOUS
 62
1
 10
         52.9000
 20
        648.6718
 30
          0.0000
  0
VERTEX
  8
1
  6
CONTINUOUS
 62
1
 10
         53.9000
 20
        648.8463
 30
          0.0000
  0
VERTEX
  8
1
  6
CONTINUOUS
 62
1
 10
         54.9000
 20
        649.0190
 30
          0.0000
  0
VERTEX
  8
1
  6
CONTINUOUS
 62
1
 10
         55.9000
 20
        649.1897
 30
          0.0000
  0
VERTEX
  8
1
  6
CONTINUOUS
 62
1
 10
         56.9000
 20
        649.3585
 30
          0.0000
  0
VERTEX
  8
1
  6
CONTINUOUS
 62
1
 10
         57.9000
 20
        649.5254
 30
          0.0000
  0
VERTEX
  8
1
  6
CONTINUOUS
 62
1
 10
         58.9000
 20
        649.6905
 30
          0.0000
  0
VERTEX
  8
1
  6
CONTINUOUS
 62
1
 10
         59.9000
 20
        649.8536
 30
          0.0000
  0
VERTEX
  8
1
  6
CONTINUOUS
 62
1
 10
         60.9000
 20
        650.0148
 30
          0.0000
  0
VERTEX
  8
1
  6
CONTINUOUS
 62
1
 10
         61.9000
 20
        650.1741
 30
          0.0000
  0
VERTEX
  8
1
  6
CONTINUOUS
 62
1
 10
         62.9000
 20
        650.3315
 30
          0.0000
  0
VERTEX
  8
1
  6
CONTINUOUS
 62
1
 10
         63.9000
 20
        650.4871
 30
          0.0000
  0
VERTEX
  8
1
  6
CONTINUOUS
 62
1
 10
         64.9000
 20
        650.6407
 30
          0.0000
  0
VERTEX
  8
1
  6
CONTINUOUS
 62
1
 10
         65.9000
 20
        650.7924
 30
          0.0000
  0
VERTEX
  8
1
  6
CONTINUOUS
 62
1
 10
         66.9000
 20
        650.9422
 30
          0.0000
  0
VERTEX
  8
1
  6
CONTINUOUS
 62
1
 10
         67.9000
 20
        651.0901
 30
          0.0000
  0
VERTEX
  8
1
  6
CONTINUOUS
 62
1
 10
         68.9000
 20
        651.2361
 30
          0.0000
  0
VERTEX
  8
1
  6
CONTINUOUS
 62
1
 10
         69.9000
 20
        651.3802
 30
          0.0000
  0
VERTEX
  8
1
  6
CONTINUOUS
 62
1
 10
         70.9000
 20
        651.5224
 30
          0.0000
  0
VERTEX
  8
1
  6
CONTINUOUS
 62
1
 10
         71.9000
 20
        651.6627
 30
          0.0000
  0
VERTEX
  8
1
  6
CONTINUOUS
 62
1
 10
         72.9000
 20
        651.8011
 30
          0.0000
  0
VERTEX
  8
1
  6
CONTINUOUS
 62
1
 10
         73.9000
 20
        651.9377
 30
          0.0000
  0
VERTEX
  8
1
  6
CONTINUOUS
 62
1
 10
         74.9000
 20
        652.0723
 30
          0.0000
  0
VERTEX
  8
1
  6
CONTINUOUS
 62
1
 10
         75.9000
 20
        652.2050
 30
          0.0000
  0
VERTEX
  8
1
  6
CONTINUOUS
 62
1
 10
         76.9000
 20
        652.3358
 30
          0.0000
  0
VERTEX
  8
1
  6
CONTINUOUS
 62
1
 10
         77.9000
 20
        652.4647
 30
          0.0000
  0
VERTEX
  8
1
  6
CONTINUOUS
 62
1
 10
         78.9000
 20
        652.5917
 30
          0.0000
  0
VERTEX
  8
1
  6
CONTINUOUS
 62
1
 10
         79.9000
 20
        652.7168
 30
          0.0000
  0
VERTEX
  8
1
  6
CONTINUOUS
 62
1
 10
         80.9000
 20
        652.8400
 30
          0.0000
  0
VERTEX
  8
1
  6
CONTINUOUS
 62
1
 10
         81.9000
 20
        652.9613
 30
          0.0000
  0
VERTEX
  8
1
  6
CONTINUOUS
 62
1
 10
         82.9000
 20
        653.0807
 30
          0.0000
  0
VERTEX
  8
1
  6
CONTINUOUS
 62
1
 10
         83.9000
 20
        653.1981
 30
          0.0000
  0
VERTEX
  8
1
  6
CONTINUOUS
 62
1
 10
         84.9000
 20
        653.3137
 30
          0.0000
  0
VERTEX
  8
1
  6
CONTINUOUS
 62
1
 10
         85.9000
 20
        653.4274
 30
          0.0000
  0
VERTEX
  8
1
  6
CONTINUOUS
 62
1
 10
         86.9000
 20
        653.5392
 30
          0.0000
  0
VERTEX
  8
1
  6
CONTINUOUS
 62
1
 10
         87.9000
 20
        653.6491
 30
          0.0000
  0
VERTEX
  8
1
  6
CONTINUOUS
 62
1
 10
         88.9000
 20
        653.7571
 30
          0.0000
  0
VERTEX
  8
1
  6
CONTINUOUS
 62
1
 10
         89.9000
 20
        653.8632
 30
          0.0000
  0
VERTEX
  8
1
  6
CONTINUOUS
 62
1
 10
         90.9000
 20
        653.9674
 30
          0.0000
  0
VERTEX
  8
1
  6
CONTINUOUS
 62
1
 10
         91.9000
 20
        654.0697
 30
          0.0000
  0
VERTEX
  8
1
  6
CONTINUOUS
 62
1
 10
         92.9000
 20
        654.1701
 30
          0.0000
  0
VERTEX
  8
1
  6
CONTINUOUS
 62
1
 10
         93.9000
 20
        654.2685
 30
          0.0000
  0
VERTEX
  8
1
  6
CONTINUOUS
 62
1
 10
         94.9000
 20
        654.3651
 30
          0.0000
  0
VERTEX
  8
1
  6
CONTINUOUS
 62
1
 10
         95.9000
 20
        654.4598
 30
          0.0000
  0
VERTEX
  8
1
  6
CONTINUOUS
 62
1
 10
         96.9000
 20
        654.5526
 30
          0.0000
  0
VERTEX
  8
1
  6
CONTINUOUS
 62
1
 10
         97.9000
 20
        654.6435
 30
          0.0000
  0
VERTEX
  8
1
  6
CONTINUOUS
 62
1
 10
         98.9000
 20
        654.7324
 30
          0.0000
  0
VERTEX
  8
1
  6
CONTINUOUS
 62
1
 10
         99.9000
 20
        654.8195
 30
          0.0000
  0
VERTEX
  8
1
  6
CONTINUOUS
 62
1
 10
        100.9000
 20
        654.9047
 30
          0.0000
  0
VERTEX
  8
1
  6
CONTINUOUS
 62
1
 10
        101.9000
 20
        654.9880
 30
          0.0000
  0
VERTEX
  8
1
  6
CONTINUOUS
 62
1
 10
        102.9000
 20
        655.0693
 30
          0.0000
  0
VERTEX
  8
1
  6
CONTINUOUS
 62
1
 10
        103.9000
 20
        655.1488
 30
          0.0000
  0
VERTEX
  8
1
  6
CONTINUOUS
 62
1
 10
        104.9000
 20
        655.2264
 30
          0.0000
  0
VERTEX
  8
1
  6
CONTINUOUS
 62
1
 10
        105.9000
 20
        655.3021
 30
          0.0000
  0
VERTEX
  8
1
  6
CONTINUOUS
 62
1
 10
        106.9000
 20
        655.3758
 30
          0.0000
  0
VERTEX
  8
1
  6
CONTINUOUS
 62
1
 10
        107.9000
 20
        655.4477
 30
          0.0000
  0
VERTEX
  8
1
  6
CONTINUOUS
 62
1
 10
        108.9000
 20
        655.5177
 30
          0.0000
  0
VERTEX
  8
1
  6
CONTINUOUS
 62
1
 10
        109.9000
 20
        655.5857
 30
          0.0000
  0
VERTEX
  8
1
  6
CONTINUOUS
 62
1
 10
        110.9000
 20
        655.6519
 30
          0.0000
  0
VERTEX
  8
1
  6
CONTINUOUS
 62
1
 10
        111.9000
 20
        655.7162
 30
          0.0000
  0
VERTEX
  8
1
  6
CONTINUOUS
 62
1
 10
        112.9000
 20
        655.7785
 30
          0.0000
  0
VERTEX
  8
1
  6
CONTINUOUS
 62
1
 10
        113.9000
 20
        655.8390
 30
          0.0000
  0
VERTEX
  8
1
  6
CONTINUOUS
 62
1
 10
        114.9000
 20
        655.8976
 30
          0.0000
  0
VERTEX
  8
1
  6
CONTINUOUS
 62
1
 10
        115.9000
 20
        655.9542
 30
          0.0000
  0
VERTEX
  8
1
  6
CONTINUOUS
 62
1
 10
        116.9000
 20
        656.0090
 30
          0.0000
  0
VERTEX
  8
1
  6
CONTINUOUS
 62
1
 10
        117.9000
 20
        656.0618
 30
          0.0000
  0
VERTEX
  8
1
  6
CONTINUOUS
 62
1
 10
        118.9000
 20
        656.1128
 30
          0.0000
  0
VERTEX
  8
1
  6
CONTINUOUS
 62
1
 10
        119.9000
 20
        656.1619
 30
          0.0000
  0
VERTEX
  8
1
  6
CONTINUOUS
 62
1
 10
        120.9000
 20
        656.2098
 30
          0.0000
  0
VERTEX
  8
1
  6
CONTINUOUS
 62
1
 10
        121.9000
 20
        656.2577
 30
          0.0000
  0
VERTEX
  8
1
  6
CONTINUOUS
 62
1
 10
        122.9000
 20
        656.3056
 30
          0.0000
  0
VERTEX
  8
1
  6
CONTINUOUS
 62
1
 10
        123.9000
 20
        656.3535
 30
          0.0000
  0
VERTEX
  8
1
  6
CONTINUOUS
 62
1
 10
        124.9000
 20
        656.4015
 30
          0.0000
  0
VERTEX
  8
1
  6
CONTINUOUS
 62
1
 10
        125.9000
 20
        656.4494
 30
          0.0000
  0
VERTEX
  8
1
  6
CONTINUOUS
 62
1
 10
        126.9000
 20
        656.4973
 30
          0.0000
  0
VERTEX
  8
1
  6
CONTINUOUS
 62
1
 10
        127.9000
 20
        656.5452
 30
          0.0000
  0
VERTEX
  8
1
  6
CONTINUOUS
 62
1
 10
        128.9000
 20
        656.5931
 30
          0.0000
  0
VERTEX
  8
1
  6
CONTINUOUS
 62
1
 10
        129.9000
 20
        656.6410
 30
          0.0000
  0
VERTEX
  8
1
  6
CONTINUOUS
 62
1
 10
        130.9000
 20
        656.6890
 30
          0.0000
  0
VERTEX
  8
1
  6
CONTINUOUS
 62
1
 10
        131.9000
 20
        656.7369
 30
          0.0000
  0
VERTEX
  8
1
  6
CONTINUOUS
 62
1
 10
        132.9000
 20
        656.7848
 30
          0.0000
  0
VERTEX
  8
1
  6
CONTINUOUS
 62
1
 10
        133.9000
 20
        656.8327
 30
          0.0000
  0
VERTEX
  8
1
  6
CONTINUOUS
 62
1
 10
        134.9000
 20
        656.8806
 30
          0.0000
  0
VERTEX
  8
1
  6
CONTINUOUS
 62
1
 10
        135.9000
 20
        656.9285
 30
          0.0000
  0
VERTEX
  8
1
  6
CONTINUOUS
 62
1
 10
        136.9000
 20
        656.9765
 30
          0.0000
  0
VERTEX
  8
1
  6
CONTINUOUS
 62
1
 10
        137.9000
 20
        657.0244
 30
          0.0000
  0
VERTEX
  8
1
  6
CONTINUOUS
 62
1
 10
        138.9000
 20
        657.0723
 30
          0.0000
  0
VERTEX
  8
1
  6
CONTINUOUS
 62
1
 10
        139.9000
 20
        657.1202
 30
          0.0000
  0
VERTEX
  8
1
  6
CONTINUOUS
 62
1
 10
        140.9000
 20
        657.1681
 30
          0.0000
  0
VERTEX
  8
1
  6
CONTINUOUS
 62
1
 10
        141.9000
 20
        657.2160
 30
          0.0000
  0
VERTEX
  8
1
  6
CONTINUOUS
 62
1
 10
        142.9000
 20
        657.2640
 30
          0.0000
  0
VERTEX
  8
1
  6
CONTINUOUS
 62
1
 10
        143.9000
 20
        657.3119
 30
          0.0000
  0
VERTEX
  8
1
  6
CONTINUOUS
 62
1
 10
        144.9000
 20
        657.3598
 30
          0.0000
  0
VERTEX
  8
1
  6
CONTINUOUS
 62
1
 10
        145.9000
 20
        657.4077
 30
          0.0000
  0
VERTEX
  8
1
  6
CONTINUOUS
 62
1
 10
        146.9000
 20
        657.4556
 30
          0.0000
  0
VERTEX
  8
1
  6
CONTINUOUS
 62
1
 10
        147.9000
 20
        657.5035
 30
          0.0000
  0
VERTEX
  8
1
  6
CONTINUOUS
 62
1
 10
        148.9000
 20
        657.5515
 30
          0.0000
  0
VERTEX
  8
1
  6
CONTINUOUS
 62
1
 10
        149.9000
 20
        657.5994
 30
          0.0000
  0
VERTEX
  8
1
  6
CONTINUOUS
 62
1
 10
        150.9000
 20
        657.6473
 30
          0.0000
  0
VERTEX
  8
1
  6
CONTINUOUS
 62
1
 10
        151.9000
 20
        657.6952
 30
          0.0000
  0
VERTEX
  8
1
  6
CONTINUOUS
 62
1
 10
        152.9000
 20
        657.7431
 30
          0.0000
  0
VERTEX
  8
1
  6
CONTINUOUS
 62
1
 10
        153.9000
 20
        657.7910
 30
          0.0000
  0
VERTEX
  8
1
  6
CONTINUOUS
 62
1
 10
        154.9000
 20
        657.8390
 30
          0.0000
  0
VERTEX
  8
1
  6
CONTINUOUS
 62
1
 10
        155.9000
 20
        657.8862
 30
          0.0000
  0
VERTEX
  8
1
  6
CONTINUOUS
 62
1
 10
        156.9000
 20
        657.9320
 30
          0.0000
  0
VERTEX
  8
1
  6
CONTINUOUS
 62
1
 10
        157.9000
 20
        657.9761
 30
          0.0000
  0
VERTEX
  8
1
  6
CONTINUOUS
 62
1
 10
        158.9000
 20
        658.0188
 30
          0.0000
  0
VERTEX
  8
1
  6
CONTINUOUS
 62
1
 10
        159.9000
 20
        658.0598
 30
          0.0000
  0
VERTEX
  8
1
  6
CONTINUOUS
 62
1
 10
        160.9000
 20
        658.0993
 30
          0.0000
  0
VERTEX
  8
1
  6
CONTINUOUS
 62
1
 10
        161.9000
 20
        658.1372
 30
          0.0000
  0
VERTEX
  8
1
  6
CONTINUOUS
 62
1
 10
        162.9000
 20
        658.1736
 30
          0.0000
  0
VERTEX
  8
1
  6
CONTINUOUS
 62
1
 10
        163.9000
 20
        658.2084
 30
          0.0000
  0
VERTEX
  8
1
  6
CONTINUOUS
 62
1
 10
        164.9000
 20
        658.2417
 30
          0.0000
  0
VERTEX
  8
1
  6
CONTINUOUS
 62
1
 10
        165.9000
 20
        658.2734
 30
          0.0000
  0
VERTEX
  8
1
  6
CONTINUOUS
 62
1
 10
        166.9000
 20
        658.3035
 30
          0.0000
  0
VERTEX
  8
1
  6
CONTINUOUS
 62
1
 10
        167.9000
 20
        658.3321
 30
          0.0000
  0
VERTEX
  8
1
  6
CONTINUOUS
 62
1
 10
        168.9000
 20
        658.3591
 30
          0.0000
  0
VERTEX
  8
1
  6
CONTINUOUS
 62
1
 10
        169.9000
 20
        658.3845
 30
          0.0000
  0
VERTEX
  8
1
  6
CONTINUOUS
 62
1
 10
        170.9000
 20
        658.4084
 30
          0.0000
  0
VERTEX
  8
1
  6
CONTINUOUS
 62
1
 10
        171.9000
 20
        658.4307
 30
          0.0000
  0
VERTEX
  8
1
  6
CONTINUOUS
 62
1
 10
        172.9000
 20
        658.4515
 30
          0.0000
  0
VERTEX
  8
1
  6
CONTINUOUS
 62
1
 10
        173.9000
 20
        658.4707
 30
          0.0000
  0
VERTEX
  8
1
  6
CONTINUOUS
 62
1
 10
        174.9000
 20
        658.4884
 30
          0.0000
  0
VERTEX
  8
1
  6
CONTINUOUS
 62
1
 10
        175.9000
 20
        658.5045
 30
          0.0000
  0
VERTEX
  8
1
  6
CONTINUOUS
 62
1
 10
        176.9000
 20
        658.5190
 30
          0.0000
  0
VERTEX
  8
1
  6
CONTINUOUS
 62
1
 10
        177.9000
 20
        658.5320
 30
          0.0000
  0
VERTEX
  8
1
  6
CONTINUOUS
 62
1
 10
        178.9000
 20
        658.5434
 30
          0.0000
  0
VERTEX
  8
1
  6
CONTINUOUS
 62
1
 10
        179.9000
 20
        658.5532
 30
          0.0000
  0
VERTEX
  8
1
  6
CONTINUOUS
 62
1
 10
        180.9000
 20
        658.5615
 30
          0.0000
  0
VERTEX
  8
1
  6
CONTINUOUS
 62
1
 10
        181.9000
 20
        658.5682
 30
          0.0000
  0
VERTEX
  8
1
  6
CONTINUOUS
 62
1
 10
        182.9000
 20
        658.5734
 30
          0.0000
  0
VERTEX
  8
1
  6
CONTINUOUS
 62
1
 10
        183.9000
 20
        658.5770
 30
          0.0000
  0
VERTEX
  8
1
  6
CONTINUOUS
 62
1
 10
        184.9000
 20
        658.5790
 30
          0.0000
  0
VERTEX
  8
1
  6
CONTINUOUS
 62
1
 10
        185.9000
 20
        658.5795
 30
          0.0000
  0
VERTEX
  8
1
  6
CONTINUOUS
 62
1
 10
        186.9000
 20
        658.5785
 30
          0.0000
  0
VERTEX
  8
1
  6
CONTINUOUS
 62
1
 10
        187.9000
 20
        658.5758
 30
          0.0000
  0
VERTEX
  8
1
  6
CONTINUOUS
 62
1
 10
        188.9000
 20
        658.5716
 30
          0.0000
  0
VERTEX
  8
1
  6
CONTINUOUS
 62
1
 10
        189.9000
 20
        658.5659
 30
          0.0000
  0
VERTEX
  8
1
  6
CONTINUOUS
 62
1
 10
        190.9000
 20
        658.5586
 30
          0.0000
  0
VERTEX
  8
1
  6
CONTINUOUS
 62
1
 10
        191.9000
 20
        658.5497
 30
          0.0000
  0
VERTEX
  8
1
  6
CONTINUOUS
 62
1
 10
        192.9000
 20
        658.5393
 30
          0.0000
  0
VERTEX
  8
1
  6
CONTINUOUS
 62
1
 10
        193.9000
 20
        658.5273
 30
          0.0000
  0
VERTEX
  8
1
  6
CONTINUOUS
 62
1
 10
        194.9000
 20
        658.5137
 30
          0.0000
  0
VERTEX
  8
1
  6
CONTINUOUS
 62
1
 10
        195.9000
 20
        658.4986
 30
          0.0000
  0
VERTEX
  8
1
  6
CONTINUOUS
 62
1
 10
        196.9000
 20
        658.4819
 30
          0.0000
  0
VERTEX
  8
1
  6
CONTINUOUS
 62
1
 10
        197.9000
 20
        658.4637
 30
          0.0000
  0
VERTEX
  8
1
  6
CONTINUOUS
 62
1
 10
        198.9000
 20
        658.4439
 30
          0.0000
  0
VERTEX
  8
1
  6
CONTINUOUS
 62
1
 10
        199.9000
 20
        658.4225
 30
          0.0000
  0
VERTEX
  8
1
  6
CONTINUOUS
 62
1
 10
        200.0000
 20
        658.4203
 30
          0.0000
  0
SEQEND
  8
0
  0
LINE
  8
3
  6
DOT
 62
3
 10
         20.0000
 20
        610.0000
 30
          0.0000
 11
        210.0000
 21
        610.0000
 31
          0.0000
  0
TEXT
  8
3
  6
CONTINUOUS
 62
3
 10
         19.3750
 20
        610.0000
 30
          0.0000
 40
          1.2500
  1
610
 72
2
 11
         19.3750
 21
        610.0000
 31
          0.0000
  7
ROMANS
  0
TEXT
  8
3
  6
CONTINUOUS
 62
3
 10
        210.6250
 20
        610.0000
 30
          0.0000
 40
          1.2500
  1
610
  7
ROMANS
  0
LINE
  8
3
  6
DOT
 62
3
 10
         20.0000
 20
        620.0000
 30
          0.0000
 11
        210.0000
 21
        620.0000
 31
          0.0000
  0
TEXT
  8
3
  6
CONTINUOUS
 62
3
 10
         19.3750
 20
        620.0000
 30
          0.0000
 40
          1.2500
  1
620
 72
2
 11
         19.3750
 21
        620.0000
 31
          0.0000
  7
ROMANS
  0
TEXT
  8
3
  6
CONTINUOUS
 62
3
 10
        210.6250
 20
        620.0000
 30
          0.0000
 40
          1.2500
  1
620
  7
ROMANS
  0
LINE
  8
3
  6
DOT
 62
3
 10
         20.0000
 20
        630.0000
 30
          0.0000
 11
        210.0000
 21
        630.0000
 31
          0.0000
  0
TEXT
  8
3
  6
CONTINUOUS
 62
3
 10
         19.3750
 20
        630.0000
 30
          0.0000
 40
          1.2500
  1
630
 72
2
 11
         19.3750
 21
        630.0000
 31
          0.0000
  7
ROMANS
  0
TEXT
  8
3
  6
CONTINUOUS
 62
3
 10
        210.6250
 20
        630.0000
 30
          0.0000
 40
          1.2500
  1
630
  7
ROMANS
  0
LINE
  8
3
  6
DOT
 62
3
 10
         20.0000
 20
        640.0000
 30
          0.0000
 11
        210.0000
 21
        640.0000
 31
          0.0000
  0
TEXT
  8
3
  6
CONTINUOUS
 62
3
 10
         19.3750
 20
        640.0000
 30
          0.0000
 40
          1.2500
  1
640
 72
2
 11
         19.3750
 21
        640.0000
 31
          0.0000
  7
ROMANS
  0
TEXT
  8
3
  6
CONTINUOUS
 62
3
 10
        210.6250
 20
        640.0000
 30
          0.0000
 40
          1.2500
  1
640
  7
ROMANS
  0
LINE
  8
3
  6
DOT
 62
3
 10
         20.0000
 20
        650.0000
 30
          0.0000
 11
        210.0000
 21
        650.0000
 31
          0.0000
  0
TEXT
  8
3
  6
CONTINUOUS
 62
3
 10
         19.3750
 20
        650.0000
 30
          0.0000
 40
          1.2500
  1
650
 72
2
 11
         19.3750
 21
        650.0000
 31
          0.0000
  7
ROMANS
  0
TEXT
  8
3
  6
CONTINUOUS
 62
3
 10
        210.6250
 20
        650.0000
 30
          0.0000
 40
          1.2500
  1
650
  7
ROMANS
  0
LINE
  8
3
  6
DOT
 62
3
 10
         20.0000
 20
        660.0000
 30
          0.0000
 11
        210.0000
 21
        660.0000
 31
          0.0000
  0
TEXT
  8
3
  6
CONTINUOUS
 62
3
 10
         19.3750
 20
        660.0000
 30
          0.0000
 40
          1.2500
  1
660
 72
2
 11
         19.3750
 21
        660.0000
 31
          0.0000
  7
ROMANS
  0
TEXT
  8
3
  6
CONTINUOUS
 62
3
 10
        210.6250
 20
        660.0000
 30
          0.0000
 40
          1.2500
  1
660
  7
ROMANS
  0
LINE
  8
3
  6
DOT
 62
3
 10
         20.0000
 20
        670.0000
 30
          0.0000
 11
        210.0000
 21
        670.0000
 31
          0.0000
  0
TEXT
  8
3
  6
CONTINUOUS
 62
3
 10
         19.3750
 20
        670.0000
 30
          0.0000
 40
          1.2500
  1
670
 72
2
 11
         19.3750
 21
        670.0000
 31
          0.0000
  7
ROMANS
  0
TEXT
  8
3
  6
CONTINUOUS
 62
3
 10
        210.6250
 20
        670.0000
 30
          0.0000
 40
          1.2500
  1
670
  7
ROMANS
  0
LINE
  8
3
  6
DOT
 62
3
 10
         20.0000
 20
        680.0000
 30
          0.0000
 11
        210.0000
 21
        680.0000
 31
          0.0000
  0
TEXT
  8
3
  6
CONTINUOUS
 62
3
 10
         19.3750
 20
        680.0000
 30
          0.0000
 40
          1.2500
  1
680
 72
2
 11
         19.3750
 21
        680.0000
 31
          0.0000
  7
ROMANS
  0
TEXT
  8
3
  6
CONTINUOUS
 62
3
 10
        210.6250
 20
        680.0000
 30
          0.0000
 40
          1.2500
  1
680
  7
ROMANS
  0
LINE
  8
3
  6
DOT
 62
3
 10
         20.0000
 20
        690.0000
 30
          0.0000
 11
        210.0000
 21
        690.0000
 31
          0.0000
  0
TEXT
  8
3
  6
CONTINUOUS
 62
3
 10
         19.3750
 20
        690.0000
 30
          0.0000
 40
          1.2500
  1
690
 72
2
 11
         19.3750
 21
        690.0000
 31
          0.0000
  7
ROMANS
  0
TEXT
  8
3
  6
CONTINUOUS
 62
3
 10
        210.6250
 20
        690.0000
 30
          0.0000
 40
          1.2500
  1
690
  7
ROMANS
  0
LINE
  8
3
  6
DOT
 62
3
 10
         20.0000
 20
        610.0000
 30
          0.0000
 11
         20.0000
 21
        690.0000
 31
          0.0000
  0
TEXT
  8
3
  6
CONTINUOUS
 62
3
 10
         20.0000
 20
        609.3750
 30
          0.0000
 40
          1.2500
  1
2+00
 72
1
 11
         20.0000
 21
        609.3750
 31
          0.0000
 73
3
  7
ROMANS
  0
LINE
  8
3
  6
DOT
 62
3
 10
         30.0000
 20
        610.0000
 30
          0.0000
 11
         30.0000
 21
        690.0000
 31
          0.0000
  0
TEXT
  8
3
  6
CONTINUOUS
 62
3
 10
         30.0000
 20
        609.3750
 30
          0.0000
 40
          1.2500
  1
3+00
 72
1
 11
         30.0000
 21
        609.3750
 31
          0.0000
 73
3
  7
ROMANS
  0
LINE
  8
3
  6
DOT
 62
3
 10
         40.0000
 20
        610.0000
 30
          0.0000
 11
         40.0000
 21
        690.0000
 31
          0.0000
  0
TEXT
  8
3
  6
CONTINUOUS
 62
3
 10
         40.0000
 20
        609.3750
 30
          0.0000
 40
          1.2500
  1
4+00
 72
1
 11
         40.0000
 21
        609.3750
 31
          0.0000
 73
3
  7
ROMANS
  0
TEXT
  8
3
  6
CONTINUOUS
 62
3
 10
         39.6875
 20
        610.6250
 30
          0.0000
 40
          1.2500
  1
646.25
  7
ROMANS
 50
  90.0000
  0
LINE
  8
3
  6
DOT
 62
3
 10
         50.0000
 20
        610.0000
 30
          0.0000
 11
         50.0000
 21
        690.0000
 31
          0.0000
  0
TEXT
  8
3
  6
CONTINUOUS
 62
3
 10
         50.0000
 20
        609.3750
 30
          0.0000
 40
          1.2500
  1
5+00
 72
1
 11
         50.0000
 21
        609.3750
 31
          0.0000
 73
3
  7
ROMANS
  0
TEXT
  8
3
  6
CONTINUOUS
 62
3
 10
         49.6875
 20
        610.6250
 30
          0.0000
 40
          1.2500
  1
648.15
  7
ROMANS
 50
  90.0000
  0
LINE
  8
3
  6
DOT
 62
3
 10
         60.0000
 20
        610.0000
 30
          0.0000
 11
         60.0000
 21
        690.0000
 31
          0.0000
  0
TEXT
  8
3
  6
CONTINUOUS
 62
3
 10
         60.0000
 20
        609.3750
 30
          0.0000
 40
          1.2500
  1
6+00
 72
1
 11
         60.0000
 21
        609.3750
 31
          0.0000
 73
3
  7
ROMANS
  0
TEXT
  8
3
  6
CONTINUOUS
 62
3
 10
         59.6875
 20
        610.6250
 30
          0.0000
 40
          1.2500
  1
649.87
  7
ROMANS
 50
  90.0000
  0
LINE
  8
3
  6
DOT
 62
3
 10
         70.0000
 20
        610.0000
 30
          0.0000
 11
         70.0000
 21
        690.0000
 31
          0.0000
  0
TEXT
  8
3
  6
CONTINUOUS
 62
3
 10
         70.0000
 20
        609.3750
 30
          0.0000
 40
          1.2500
  1
7+00
 72
1
 11
         70.0000
 21
        609.3750
 31
          0.0000
 73
3
  7
ROMANS
  0
TEXT
  8
3
  6
CONTINUOUS
 62
3
 10
         69.6875
 20
        610.6250
 30
          0.0000
 40
          1.2500
  1
651.39
  7
ROMANS
 50
  90.0000
  0
LINE
  8
3
  6
DOT
 62
3
 10
         80.0000
 20
        610.0000
 30
          0.0000
 11
         80.0000
 21
        690.0000
 31
          0.0000
  0
TEXT
  8
3
  6
CONTINUOUS
 62
3
 10
         80.0000
 20
        609.3750
 30
          0.0000
 40
          1.2500
  1
8+00
 72
1
 11
         80.0000
 21
        609.3750
 31
          0.0000
 73
3
  7
ROMANS
  0
TEXT
  8
3
  6
CONTINUOUS
 62
3
 10
         79.6875
 20
        610.6250
 30
          0.0000
 40
          1.2500
  1
652.73
  7
ROMANS
 50
  90.0000
  0
LINE
  8
3
  6
DOT
 62
3
 10
         90.0000
 20
        610.0000
 30
          0.0000
 11
         90.0000
 21
        690.0000
 31
          0.0000
  0
TEXT
  8
3
  6
CONTINUOUS
 62
3
 10
         90.0000
 20
        609.3750
 30
          0.0000
 40
          1.2500
  1
9+00
 72
1
 11
         90.0000
 21
        609.3750
 31
          0.0000
 73
3
  7
ROMANS
  0
TEXT
  8
3
  6
CONTINUOUS
 62
3
 10
         89.6875
 20
        610.6250
 30
          0.0000
 40
          1.2500
  1
653.87
  7
ROMANS
 50
  90.0000
  0
LINE
  8
3
  6
DOT
 62
3
 10
        100.0000
 20
        610.0000
 30
          0.0000
 11
        100.0000
 21
        690.0000
 31
          0.0000
  0
TEXT
  8
3
  6
CONTINUOUS
 62
3
 10
        100.0000
 20
        609.3750
 30
          0.0000
 40
          1.2500
  1
10+00
 72
1
 11
        100.0000
 21
        609.3750
 31
          0.0000
 73
3
  7
ROMANS
  0
TEXT
  8
3
  6
CONTINUOUS
 62
3
 10
         99.6875
 20
        610.6250
 30
          0.0000
 40
          1.2500
  1
654.83
  7
ROMANS
 50
  90.0000
  0
LINE
  8
3
  6
DOT
 62
3
 10
        110.0000
 20
        610.0000
 30
          0.0000
 11
        110.0000
 21
        690.0000
 31
          0.0000
  0
TEXT
  8
3
  6
CONTINUOUS
 62
3
 10
        110.0000
 20
        609.3750
 30
          0.0000
 40
          1.2500
  1
11+00
 72
1
 11
        110.0000
 21
        609.3750
 31
          0.0000
 73
3
  7
ROMANS
  0
TEXT
  8
3
  6
CONTINUOUS
 62
3
 10
        109.6875
 20
        610.6250
 30
          0.0000
 40
          1.2500
  1
655.59
  7
ROMANS
 50
  90.0000
  0
LINE
  8
3
  6
DOT
 62
3
 10
        120.0000
 20
        610.0000
 30
          0.0000
 11
        120.0000
 21
        690.0000
 31
          0.0000
  0
TEXT
  8
3
  6
CONTINUOUS
 62
3
 10
        120.0000
 20
        609.3750
 30
          0.0000
 40
          1.2500
  1
12+00
 72
1
 11
        120.0000
 21
        609.3750
 31
          0.0000
 73
3
  7
ROMANS
  0
TEXT
  8
3
  6
CONTINUOUS
 62
3
 10
        119.6875
 20
        610.6250
 30
          0.0000
 40
          1.2500
  1
656.17
  7
ROMANS
 50
  90.0000
  0
LINE
  8
3
  6
DOT
 62
3
 10
        130.0000
 20
        610.0000
 30
          0.0000
 11
        130.0000
 21
        690.0000
 31
          0.0000
  0
TEXT
  8
3
  6
CONTINUOUS
 62
3
 10
        130.0000
 20
        609.3750
 30
          0.0000
 40
          1.2500
  1
13+00
 72
1
 11
        130.0000
 21
        609.3750
 31
          0.0000
 73
3
  7
ROMANS
  0
TEXT
  8
3
  6
CONTINUOUS
 62
3
 10
        129.6875
 20
        610.6250
 30
          0.0000
 40
          1.2500
  1
656.65
  7
ROMANS
 50
  90.0000
  0
LINE
  8
3
  6
DOT
 62
3
 10
        140.0000
 20
        610.0000
 30
          0.0000
 11
        140.0000
 21
        690.0000
 31
          0.0000
  0
TEXT
  8
3
  6
CONTINUOUS
 62
3
 10
        140.0000
 20
        609.3750
 30
          0.0000
 40
          1.2500
  1
14+00
 72
1
 11
        140.0000
 21
        609.3750
 31
          0.0000
 73
3
  7
ROMANS
  0
TEXT
  8
3
  6
CONTINUOUS
 62
3
 10
        139.6875
 20
        610.6250
 30
          0.0000
 40
          1.2500
  1
657.13
  7
ROMANS
 50
  90.0000
  0
LINE
  8
3
  6
DOT
 62
3
 10
        150.0000
 20
        610.0000
 30
          0.0000
 11
        150.0000
 21
        690.0000
 31
          0.0000
  0
TEXT
  8
3
  6
CONTINUOUS
 62
3
 10
        150.0000
 20
        609.3750
 30
          0.0000
 40
          1.2500
  1
15+00
 72
1
 11
        150.0000
 21
        609.3750
 31
          0.0000
 73
3
  7
ROMANS
  0
TEXT
  8
3
  6
CONTINUOUS
 62
3
 10
        149.6875
 20
        610.6250
 30
          0.0000
 40
          1.2500
  1
657.60
  7
ROMANS
 50
  90.0000
  0
LINE
  8
3
  6
DOT
 62
3
 10
        160.0000
 20
        610.0000
 30
          0.0000
 11
        160.0000
 21
        690.0000
 31
          0.0000
  0
TEXT
  8
3
  6
CONTINUOUS
 62
3
 10
        160.0000
 20
        609.3750
 30
          0.0000
 40
          1.2500
  1
16+00
 72
1
 11
        160.0000
 21
        609.3750
 31
          0.0000
 73
3
  7
ROMANS
  0
TEXT
  8
3
  6
CONTINUOUS
 62
3
 10
        159.6875
 20
        610.6250
 30
          0.0000
 40
          1.2500
  1
658.06
  7
ROMANS
 50
  90.0000
  0
LINE
  8
3
  6
DOT
 62
3
 10
        170.0000
 20
        610.0000
 30
          0.0000
 11
        170.0000
 21
        690.0000
 31
          0.0000
  0
TEXT
  8
3
  6
CONTINUOUS
 62
3
 10
        170.0000
 20
        609.3750
 30
          0.0000
 40
          1.2500
  1
17+00
 72
1
 11
        170.0000
 21
        609.3750
 31
          0.0000
 73
3
  7
ROMANS
  0
TEXT
  8
3
  6
CONTINUOUS
 62
3
 10
        169.6875
 20
        610.6250
 30
          0.0000
 40
          1.2500
  1
658.39
  7
ROMANS
 50
  90.0000
  0
LINE
  8
3
  6
DOT
 62
3
 10
        180.0000
 20
        610.0000
 30
          0.0000
 11
        180.0000
 21
        690.0000
 31
          0.0000
  0
TEXT
  8
3
  6
CONTINUOUS
 62
3
 10
        180.0000
 20
        609.3750
 30
          0.0000
 40
          1.2500
  1
18+00
 72
1
 11
        180.0000
 21
        609.3750
 31
          0.0000
 73
3
  7
ROMANS
  0
TEXT
  8
3
  6
CONTINUOUS
 62
3
 10
        179.6875
 20
        610.6250
 30
          0.0000
 40
          1.2500
  1
658.55
  7
ROMANS
 50
  90.0000
  0
LINE
  8
3
  6
DOT
 62
3
 10
        190.0000
 20
        610.0000
 30
          0.0000
 11
        190.0000
 21
        690.0000
 31
          0.0000
  0
TEXT
  8
3
  6
CONTINUOUS
 62
3
 10
        190.0000
 20
        609.3750
 30
          0.0000
 40
          1.2500
  1
19+00
 72
1
 11
        190.0000
 21
        609.3750
 31
          0.0000
 73
3
  7
ROMANS
  0
TEXT
  8
3
  6
CONTINUOUS
 62
3
 10
        189.6875
 20
        610.6250
 30
          0.0000
 40
          1.2500
  1
658.57
  7
ROMANS
 50
  90.0000
  0
LINE
  8
3
  6
DOT
 62
3
 10
        200.0000
 20
        610.0000
 30
          0.0000
 11
        200.0000
 21
        690.0000
 31
          0.0000
  0
TEXT
  8
3
  6
CONTINUOUS
 62
3
 10
        200.0000
 20
        609.3750
 30
          0.0000
 40
          1.2500
  1
20+00
 72
1
 11
        200.0000
 21
        609.3750
 31
          0.0000
 73
3
  7
ROMANS
  0
TEXT
  8
3
  6
CONTINUOUS
 62
3
 10
        199.6875
 20
        610.6250
 30
          0.0000
 40
          1.2500
  1
658.42
  7
ROMANS
 50
  90.0000
  0
LINE
  8
3
  6
DOT
 62
3
 10
        210.0000
 20
        610.0000
 30
          0.0000
 11
        210.0000
 21
        690.0000
 31
          0.0000
  0
TEXT
  8
3
  6
CONTINUOUS
 62
3
 10
        210.0000
 20
        609.3750
 30
          0.0000
 40
          1.2500
  1
21+00
 72
1
 11
        210.0000
 21
        609.3750
 31
          0.0000
 73
3
  7
ROMANS
0
ENDSEC
0
EOF
